gong mandalaplanet gong Tribal Heart
Daevid Allen - Good Morning - French Garden


The 'Je Ne Fume Pas Des Bananes' version misses out the
second chord - only the first and third are played.


E---6--------------4------------3--------------------------------
B---7--------------6------------5--------------------------------
G---6--------------5------------5--------------------------------
D---X--------------X------------X--------------------------------
A---X--------------X------------X--------------------------------
E---X--------------X------------X--------------------------------
    In a French    garden       by the sea
    Sitting up     high in a    hollow tree
    Looking        round for a  four leaf clover
    Waiting for an albatross to carry me over



       E       A      D               B
    To see you there, sitting in your bed
       Be      there, sitting in your bed



E---5----------------4--------------------4----------------------
B---5----------------4--------------------5----------------------
G---6----------------5--------------------6----------------------
D---7----------------4--------------------6----------------------
A---7----------------6--------------------4----------------------
E---5----------------4--------------------4----------------------
      You gotta      prove you're a       millionaire, they
      search you for thoughts and they    measure your hair, they
      say it         all depends upon the clothes you wear



E-------6----------------------7-----------------8---------------
B-------6----------------------9-----------------8---------------
G-------7----------------------9-----------------9---------------
D-------8----------------------9----------------10---------------
A-------6----------------------7----------------10---------------
E-------6----------------------7-----------------8---------------

    The clothes you wear - who knows you there


Pass the Magic Hat
Free Sitemap Generator