gong mandalaplanet gong Tribal Heart
Poet For Sale
Daevid Allen - Now is the Happiest Time of your Life



E----5--------------0----0---------------------------------------
B--------------6--------------6---------6------------------------
G---------7------------------------7-----------------------------
D----------------------------------------------------------------
A----------------------------------------------------------------
E----------------------------------------------------------------
(x2)



E-----6--------------0----0--------------------------------------
B---------------6--------------6---------6-----------------------
G----------7------------------------7----------------------------
D----------------------------------------------------------------
A----------------------------------------------------------------
E----------------------------------------------------------------
(x2)
    


[2nd guitar part, played over top of 1st guitar part]
E----------------------------------------------------------------
B--------------3----1--------------------------------------------
G---------2--------------2---------------------------------------
D----3------------------------3----------------------------------
A----------------------------------------------------------------
E----------------------------------------------------------------
(x2)
		


E----------------------------------------------------------------
B----------------------------------------------------------------
G---------3---------5---------3----------------------------------
D----3---------3---------3---------3-----------------------------
A----------------------------------------------------------------
E----------------------------------------------------------------
(x2)




Pass the Magic Hat
Free Sitemap Generator