gong mandalaplanet gong Tribal Heart
Gong - Camembert Electrique - Fohat Digs Holes In Space


[bass]
G----------------------------------------------------------------
D----------------------------------------------------------------
A--------------7----7----7----7----7----7----7----7----7----7----
E----0----0------------------------------------------------------

[saxophone]
E----------------------------------------------------------------
B---12-------------12---15---16--------13--------15---13---12----
G--------14---12------------------15--------14-------------------
D----------------------------------------------------------------
A----------------------------------------------------------------
E----------------------------------------------------------------

     G             F#              D              D
E---10--------------9--------------8--------------8--------------
B---12-------------11-------------10-------------10--------------
G---12-------------11-------------10-------------10--------------
D---12-------------11-------------10-------------10--------------
A---10--------------9--------------8--------------8--------------
E---10--------------9--------------8--------------8--------------

(play next 2 tabs 4 times, move up 1 fret, play 4 times more)
     Am                                   Cm
E----0------------------------------------3----------------------
B----0------------------------------------3----------------------
G----1------------------------------------4----------------------
D----2------------------------------------5----------------------
A----2------------------------------------5----------------------
E----0------------------------------------3----------------------
Well help me sing this song I wanna stay living for much too long

            Dm                              Em
E-----------5-------------------------------7--------------------
B-----------5-------------------------------7--------------------
G-----------6-------------------------------8--------------------
D-----------7-------------------------------9--------------------
A-----------7-------------------------------9--------------------
E-----------5-------------------------------7--------------------
Now I wanna ride this big brass gong. Where am I babe?


E----------------------------------------------------------------
B-----7---------------------------7------------------------------
G---7------7---9---7-----7----------7---7---9---7----------------
D---------------------9-----7----------------------9-------------
A----------------------------------------------------------------
E----------------------------------------------------------------
    I gone and got me dirty shirt a hanging on the line




Pass the Magic Hat
Free Sitemap Generator