gong mandalaplanet gong Tribal Heart
Gong - Camembert Electrique - And You Tried So Hard


E-----------4----------------------5----------4---------5--------
E-----------5----------------------5----------5---------5--------
G-----------4----------------------4----------4---------4--------
D----------------------------------------------------------------
A----------------------------------------------------------------
E----------------------------------------------------------------
    And you tried so hard to get there...

    E    E    A    A    E    E    A    G    E
E----------------------------------------------------------------
B----------------------------------------------------------------
G----------------------------------------------------------------
D----------------------------------------------------------------
A----------------------------------------------------------------
E----------------------------------------------------------------


E----------------------------------------------------------------
B----------------------------------------------------------------
G----------------------------------------------------------------
D----------------------------------------------------------------
A---2--------2----0--2---0------2----3---2----0---------0--------
E-------------------------------------------------2--------------
    Must     be   a  way for    you  to  make the big   time
    You      got  to lay the    la-  dy  at   the right time
    There'll come a  day for    drinking all  the sky   wine
    You      on-  ly say you're waiting  for  the right time

E----------------------------------------------------------------
B----------------------------------------------------------------
G----------------------------------------------------------------
D----------------------------------------------------------------
A---2--------2----0-2-------------0---0-2------------------------
E-------------------------2---2----------------------------------
    There'll come a time, try and try a-gain

    C     F          D    G        C     F          D    A
E----------------------------------------------------------------
B----------------------------------------------------------------
G----------------------------------------------------------------
D----------------------------------------------------------------
A----------------------------------------------------------------
E----------------------------------------------------------------
    You believe, You who believe

  D                 C                 G                   A
E----------------------------------------------------------------
B----------------------------------------------------------------
G----------------------------------------------------------------
D----------------------------------------------------------------
A----------------------------------------------------------------
E----------------------------------------------------------------
  You believe that  you can take or   leave my love with  you
  You believe that  you are free to   choose what you can do
  You believe that  feeling nothing   makes you wise and  strong
  Tell me that what makes me love you also makes me       wrong

    D    D    A    D    D   D    D    A
E----------------------------------------------------------------
B----------------------------------------------------------------
G----------------------------------------------------------------
D----------------------------------------------------------------
A----------------------------------------------------------------
E----------------------------------------------------------------
    Look at me, Look at look at you, Look at me

    G              C               E
E----------------------------------------------------------------
B----------------------------------------------------------------
G----------------------------------------------------------------
D----------------------------------------------------------------
A----------------------------------------------------------------
E----------------------------------------------------------------
    I am not free, I'm not free, a hand flutters in my brain

           A                         D
E----------------------------------------------------------------
B----------------------------------------------------------------
G----------------------------------------------------------------
D----------------------------------------------------------------
A----------------------------------------------------------------
E----------------------------------------------------------------
    silken chords trembling into the waterfall

    E         A          A          A          G
E----------------------------------------------------------------
B----------------------------------------------------------------
G----------------------------------------------------------------
D----------------------------------------------------------------
A----------------------------------------------------------------
E----------------------------------------------------------------
    There the wise brown frog gives princely advice

        C      F         G
E----------------------------------------------------------------
B----------------------------------------------------------------
G----------------------------------------------------------------
D----------------------------------------------------------------
A----------------------------------------------------------------
E----------------------------------------------------------------
    but not to you who believe




Pass the Magic Hat
Free Sitemap Generator