gong mandalaplanet gong Tribal Heart
Gong - Magick Brother - 5 and 20 Schoolgirls


(intro)
E----------------------------------------------------------------
B----------------------------------------------------------------
G---0--0--0----0--0----0--0----0--0----0--0----0---0----0--0-----
D---5--5--5----5--5----5--5----5--5----5--5----5---5----5--5-----
A----------------------------------------------------------------
E----------------------------------------------------------------



E----------------------------------------------------------------
B----------------------------------------------------------------
G---0--------0--------0-----0-----------0----0--------0----0-----
D---4--------4--------3-----3-----------2----2--------1----1-----
A----------------------------------------------------------------
E----------------------------------------------------------------
    Five and twenty   schoolgirls       lost in the   fog
    No-  bo- dy  can  find them,    not even with a   dog
    Eve- ry  bo- dy   wants to          put them in a bog, but
    lit- tle do  they know that they're hiding in a   log

    D
    They got a big brass clock that goes tick tock   

                     G   F    D#  D    G   F    F#  D
    and they're just waiting, waiting, waiting, waiting
    waiting, waiting, wa-wa-waiting   
                              
    A                 F#   
    Mothers  in a     co-   ma
    Drinking too much so-   da, You could
    try to   te-le-   phone her

    A     F#         G      C     F      E
    all a-lone don't let us go by astral plane



The Magic Hat
Free Sitemap Generator