gong mandalaplanet gong Tribal Heart
Gong - (various) - Master Builder (OM riff)


YOU (1974)

E----------------------------------------------------------------
A----------------------------------------------------------------
D----------------------------------------------------------------
G---4--2---------------------------------------------------------
B---------4--1--4--1---------------------------------------------
E---------------------3--2-3-2-3-2-3-2-3-2-3-2-3-2-3-2-3-2-3-2---


Sherwood Forest (1975)

E----------------------------------------------------------------
A----------------------------------------------------------------
D----------------------------------------------------------------
G---5--3---------------------------------------------------------
B---------5--2--5--2---------------------------------------------
E---------------------4--3-4-3-4-3-4-3-4-3-4-3-4-3-4-3-4-3-4-3---


25th Birthday (1995)

E----------------------------------------------------------------
A----------------------------------------------------------------
D----------------------------------------------------------------
G---7--5---------------------------------------------------------
B---------7--4--7--4---------------------------------------------
E---------------------6--5-6-5-6-5-6-5-6-5-6-5-6-5-6-5-6-5-6-5---



The Magic Hat
Free Sitemap Generator