gong mandalaplanet gong Tribal Heart
Steve Hillage - Fish Rising - Solar Music Suite (Dervish riff)


(intro)
E----------------------------------------------------------------
B----15-----13--12-----12--10---------9-----7--6----6--4---------
G--------14---------12-------------------8--------6--------------
D----------------------------------------------------------------
A----------------------------------------------------------------
E----------------------------------------------------------------


E---------------12--10--12---------------------------------------
B-------10--12--------------12--10--12---------------------------
G----9----------------------------------9----5--7----------------
D----------------------------------------------------------------
A----------------------------------------------------------------
E----------------------------------------------------------------


(main riff)
E----------------------------------------------------------------
B----------------------------------------------------------------
G----------------------------------------------------------------
D----------------------------------------------------------------
A---2-2-0---2-0-2-3---2-0-2---0-2-3---2-0-2-0-2-3-5---3-2-3-0----
E----------------------------------------------------------------
(repeat)




Pass the Magic Hat
Free Sitemap Generator