gong mandalaplanet gong Tribal Heart
Soft Machine - The Soft Machine - Memories 


n/n = bend nth fret as if to nth fret
(\) = release bent string
 
 
[guitar solo]
E-----------7------------7---------------------------------------
B----------------------------------------------------------------
G---9/11---------9/11---------(\)-----7--------------------------
D----------------------------------------------------------------
A----------------------------------------------------------------
E----------------------------------------------------------------



E-----------------7----------------------------------------------
B----------------------------------------------------------------
G------7----9/11-------9/11----7--9------------------------------
D---9------------------------------------------------------------
A----------------------------------------------------------------
E----------------------------------------------------------------



E----------------------------------------------------------------
B---------------------------------------------------8--7---------
G---5/7----5------------------------8--7----7--7-----------7-----
D---------------7---5--5---7--7-------------------------------9--
A----------------------------------------------------------------
E----------------------------------------------------------------



The Magic Hat
Free Sitemap Generator