gong mandalaplanet gong tribal


daevid allen : Banana Moon
It's the Time of Your Life | Memories | All I Want is Out of Here | Fred the Fish and the Chip On His Shoulder | White Neck Blooze | Codeine Coda | Stoned Innocent Frankenstein | And His Adventures in the Land of Flip | I Am a Bowl

Memories
Hugh Hopper
daevid allen : Banana Moon

 n/n = bend nth fret as if to nth fret
 (\) = release bent string


 (guitar solo)
E-----------7------------7-------------------
B--------------------------------------------
G---9/11---------9/11---------(\)-----7------
D--------------------------------------------
A--------------------------------------------
E--------------------------------------------



E-----------------7---------------------
B---------------------------------------
G------7----9/11-------9/11----7--9-----
D---9-----------------------------------
A---------------------------------------
E---------------------------------------



E--------------------------------
B--------------------------------
G---5/7----5---------------------
D---------------7---5--5---7--7--
A--------------------------------
E--------------------------------



E--------------------------------
B-------------------8--7---------
G---8--7----7--7-----------7-----
D-----------------------------9--
A--------------------------------
E--------------------------------