gong mandalaplanet gong tribal



Gong : Angel's Egg
Other Side of the Sky | Sold to the Highest Buddha ^ Castle in the Clouds | Prostitute Poem | Givin' my Luv To You | Selene | Flute Salad | Oily Way | Outer Temple | Inner Temple | Percolations | Love is How You Make It | I Never Glid Before bass [source] | Eat That Phonebook Coda

Prostitute Poem

Gong : Angel's Egg

n/n -> bend nth fret as if up to nth fret

saxophone
E-------------------------------------------9-8---------8------
B--9------------------------------------8---------8-9-------6--
G------8-9-8---------------------------------------------------
D--------------5--6/8---6-5-3---5-6-5--------------------------
A--------------------------------------------------------------
E--------------------------------------------------------------


E--8---6-5-6-5---5---------------------------------------------
B--------------------7---7--6--5--6----------------------------
G--------------------------------------------------------------
D--------------------------------------------------------------
A--------------------------------------------------------------
E--------------------------------------------------------------

key change
E--------------------------------------------------------------
B--------------------------------------------------------------
G--------------------------------------------------------------
D--------------------------------------------------------------
A--------------------------------------------------------------
E--------------------------------------------------------------


E--------------------------------------------------------------
B--------------------------------------------------------------
G--------------------------------------------------------------
D--------------------------------------------------------------
A--------------------------------------------------------------
E--------------------------------------------------------------



E--------------------------------------------------------------
B--------------------------------------------------------------
G--------------------------------------------------------------
D--------------------------------------------------------------
A--------------------------------------------------------------
E--------------------------------------------------------------
 

Selene

Gong : Angel's Egg

E-------------------------------------------------
B-------------------------------------------------
G-------------------------------------------------
D-------------------------------------------------
A---7--7-7--7---7---7---7--7-7-7--7---------------
E---5--5-5--5---5---5---5--5-5-5--5---------------
    Se-leee-ne, spi-rit of the moon (x2)


E-------------------------------------------------
B-------------------------------------------------
G-------------------------------------------------
D-------------------------------------------------
A---9--9----9--9----9--9----9----9----------2-----
E---7--7----7--7----7--7----7----7----------0-----
    My mind is made of you, tell me what to do


E-------------------------------------------------
B-------------------------------------------------
G-------------------------------------------------
D-------------------------------------------------
A---7---7-7--7-7--7-7--7-5--5-5--5-5--5-5---------
E---5---5-5--5-5--5-5--5-3--3-3--3-3--3-3---------



E-------------------------------------------------
B-------------------------------------------------
G-------------------------------------------------
D---------------3---------------3-----------------
A---------2-2-------------2-2---------------------
E---1-1-------------1-1---------------------------
    spi-            rit


E-------------------------------------------------
B-------------------------------------------------
G-------------------------------------------------
D-------------------------------------------------
A-------------------------------------------------
E---5---7---8--7----5---7-------------------------
    You can do what you want


I Never Glid Before

Gong : Angel's Egg

Bass Tab : Matthew Gilmore

time based on playback
may vary between recordings

~ = Sustain this note, vibrato if desired
h = Hammer On
p = Pull Off
/ = Slide Up

0:00
------------------
------------------
-0-2-2-2-2-2-0h2--
------------------ x5

0:12
-------------------------
-------------------------
-0-2-2-0-2-2-0-2-2-0-2-2-
-------------------------

0:14
---------------------
---------------------
-0h2-2-0-2-0-2--0-2--
--------------------- x8

0:31
-4-3-2-2---2-------------------------------2-4-2---------
-------------4-3-2-2---2-----------------4-------4-2-4~--
-------------------------6-6-5-5-4-4-5-6-----------------
---------------------------------------------------------

0:37
---------------------
---------------------
-0h2-2-0-2-0-2--0-2--
--------------------- x3

Repeat Previous Two Lines 5 More Times

1:41
-----6--------------------------------9----------9------------
---6---6-----3-4-6------7-----------9---9------9---9----------
-4-------4--4---------7---7-------7-------7--7-------9--------
--------------------5-------5-5-5----------------------5--7-8- x2

1:58
-----4--------------------------------7------
---4---4-----1-2-4------5-----------7---7----
-2-------2--2---------5---5-------5-------5--
--------------------3-------3-3-3------------

2:05
------------------------------------------
------------------------------------------
-4--5-4-5--4-5-4-5-7-5-4-5-4-5------------
--------------------------------5-7--2-3--

2:09
---------------------
---------------------
-0h2-2-0-2-0-2--0-2--
--------------------- x4

2:18
-----
-----
-2~--
----- x7

2:34
---2-4~--4-2-------------
-4-----------4-2---------
-----------------4-2-----
---------------------4~--

2:36
-----6--------------------------------9----------9------------
---6---6-----3-4-6------7-----------9---9------9---9----------
-4-------4--4---------7---7-------7-------7--7-------9--------
--------------------5-------5-5-5----------------------5--7-8- x2

2:54
-----4----------------------------
---4---4-----1-2-4------5---------
-2-------2--2---------5---5------- 
--------------------3-------3-3-3-

2:58
-----7--------7~--
---7---7----7-----
-5-------5--------
------------------ x4

3:07
-------------
-------------
-2--0--------
-------3--1-- x3

3:23
-------------------------------------------
-0--2--4--5--7--7-7-7-5--------------5-7---
------------------------7--7-5-7-5-7-------
-----------------------------------------0-

3:30
-12-14-14-12-14p12------------------
-------------------14p12-11h12------
-------------------------------12~--
------------------------------------

3:33
-------12----12~---------------------
-12h14----14-----12--11h12-12h14-----
---------------------------------0~--
-------------------------------------

3:36
16/18-18-16-18----------16/18-18/19-17-------12p10--------------
---------------19-17-19----------------19-17-------12------8-10~
------------------------------------------------------9-10------
----------------------------------------------------------------

3:40
-----7--------7~--
---7---7----7-----
-5-------5--------
------------------ x2

3:45
-----5--------5~--
---5---5----5-----
-3-------3--------
------------------ x2

3:50
-----4--------4~--
---4---4----4-----
-2-------2--------
------------------ x4

3:58
-------4-3-------
---3-2-----4-0---
-2-------------1-
----------------- x8

4:18
---------------------
--------------------- 
-0h2-2-0-2-0-2--0-2--
--------------------- x45
progressively faster towards end

5:28
-4-3-2-1-0-0----------------------------
--------------4-3-2-1-0-0---1-2-4-1-----
--------------------------4---------2-2-
----------------------------------------


Eat That Phonebook Coda

Gong : Angel's Egg

E -----------------------------------------------------
B -----------------------------------------------------
G -----------------------------------------------------
D ------------0---1---3--0---1-----------------0-------
A ------3--0---1---3-------1---3--0-----3--0----1------
E ----1---------------------------------1--------------
 (4x)



E -----------------------------------------------------
B -----------------------------------------------------
G ------------0---1---3--0---1-----------------0-------
D ------3--0---1---3-------1---3--0-----3--0----1------
A ----1---------------------------------1--------------
E -----------------------------------------------------
 (2x)